ISO-10303-21;
HEADER;
FILE_DESCRIPTION (( 'STEP AP203' ),
    '1' );
FILE_NAME ('Q-AZHWP-20-355-M.STEP',
    '2020-12-22T09:08:13',
    ( '' ),
    ( '' ),
    'SwSTEP 2.0',
    'SolidWorks 2020',
    '' );
FILE_SCHEMA (( 'CONFIG_CONTROL_DESIGN' ));
ENDSEC;

DATA;
#1 = DIRECTION ( 'NONE',  ( 1.000000000000000000, 0.000000000000000000, 0.000000000000000000 ) ) ;
#2 = CIRCLE ( 'NONE', #186, 12.69999999999999929 ) ;
#3 = DIRECTION ( 'NONE',  ( -1.000000000000000000, -0.000000000000000000, -0.000000000000000000 ) ) ;
#4 = AXIS2_PLACEMENT_3D ( 'NONE', #246, #167, #24 ) ;
#5 = LOCAL_TIME ( 17, 8, 13.00000000000000000, #309 ) ;
#6 = APPROVAL_ROLE ( '' ) ;
#7 = CARTESIAN_POINT ( 'NONE',  ( -3.000000000000000444, 1.224646799147353256E-15, -10.00000000000000000 ) ) ;
#8 = UNCERTAINTY_MEASURE_WITH_UNIT (LENGTH_MEASURE( 1.000000000000000082E-05 ), #84, 'distance_accuracy_value', 'NONE');
#9 = CARTESIAN_POINT ( 'NONE',  ( 2.500000000000000888, 0.000000000000000000, 0.000000000000000000 ) ) ;
#10 = ORIENTED_EDGE ( 'NONE', *, *, #157, .F. ) ;
#11 = CIRCLE ( 'NONE', #233, 10.00000000000000000 ) ;
#12 = CARTESIAN_POINT ( 'NONE',  ( -2.500000000000000444, 10.00000000000000000, 0.000000000000000000 ) ) ;
#13 = DIRECTION ( 'NONE',  ( 0.000000000000000000, 0.000000000000000000, 1.000000000000000000 ) ) ;
#14 = EDGE_LOOP ( 'NONE', ( #94, #188 ) ) ;
#15 = APPLICATION_CONTEXT ( 'configuration controlled 3d designs of mechanical parts and assemblies' ) ;
#16 = ORIENTED_EDGE ( 'NONE', *, *, #292, .T. ) ;
#17 = AXIS2_PLACEMENT_3D ( 'NONE', #36, #131, #231 ) ;
#18 = AXIS2_PLACEMENT_3D ( 'NONE', #30, #122, #221 ) ;
#19 = FACE_OUTER_BOUND ( 'NONE', #21, .T. ) ;
#20 = EDGE_LOOP ( 'NONE', ( #135, #243, #263, #43 ) ) ;
#21 = EDGE_LOOP ( 'NONE', ( #83, #294, #190, #49 ) ) ;
#22 = AXIS2_PLACEMENT_3D ( 'NONE', #173, #3, #28 ) ;
#23 = PERSON_AND_ORGANIZATION ( #85, #194 ) ;
#24 = DIRECTION ( 'NONE',  ( 0.000000000000000000, 0.000000000000000000, 1.000000000000000000 ) ) ;
#25 = CYLINDRICAL_SURFACE ( 'NONE', #120, 12.69999999999999929 ) ;
#26 = APPROVAL ( #165, 'UNSPECIFIED' ) ;
#27 = DATE_TIME_ROLE ( 'classification_date' ) ;
#28 = DIRECTION ( 'NONE',  ( 0.000000000000000000, 0.000000000000000000, 1.000000000000000000 ) ) ;
#29 = CALENDAR_DATE ( 2020, 22, 12 ) ;
#30 = CARTESIAN_POINT ( 'NONE',  ( -1.614212418857619014, 0.000000000000000000, 0.000000000000000000 ) ) ;
#31 = SHAPE_DEFINITION_REPRESENTATION ( #240, #183 ) ;
#32 = DIRECTION ( 'NONE',  ( 0.000000000000000000, 0.000000000000000000, -1.000000000000000000 ) ) ;
#33 = ADVANCED_FACE ( 'NONE', ( #300 ), #25, .T. ) ;
#34 = PERSON_AND_ORGANIZATION_ROLE ( 'creator' ) ;
#35 = CARTESIAN_POINT ( 'NONE',  ( 2.999999999999999112, 0.000000000000000000, 0.000000000000000000 ) ) ;
#36 = CARTESIAN_POINT ( 'NONE',  ( -3.000000000000000000, 0.000000000000000000, 0.000000000000000000 ) ) ;
#37 = VERTEX_POINT ( 'NONE', #64 ) ;
#38 = EDGE_CURVE ( 'NONE', #37, #170, #11, .T. ) ;
#39 = CARTESIAN_POINT ( 'NONE',  ( -1.614212418857619014, 1.224646799147353256E-15, -10.00000000000000000 ) ) ;
#40 = VERTEX_POINT ( 'NONE', #117 ) ;
#41 = VECTOR ( 'NONE', #51, 1000.000000000000000 ) ;
#42 = APPROVAL ( #74, 'UNSPECIFIED' ) ;
#43 = ORIENTED_EDGE ( 'NONE', *, *, #317, .F. ) ;
#44 = EDGE_CURVE ( 'NONE', #107, #275, #283, .T. ) ;
#45 = EDGE_LOOP ( 'NONE', ( #10, #86 ) ) ;
#46 = EDGE_CURVE ( 'NONE', #259, #298, #168, .T. ) ;
#47 = CARTESIAN_POINT ( 'NONE',  ( -1.614212418857619014, 0.000000000000000000, 0.000000000000000000 ) ) ;
#48 = CARTESIAN_POINT ( 'NONE',  ( -2.500000000000000444, 0.000000000000000000, 0.000000000000000000 ) ) ;
#49 = ORIENTED_EDGE ( 'NONE', *, *, #326, .T. ) ;
#50 = DIRECTION ( 'NONE',  ( 0.000000000000000000, 0.000000000000000000, 1.000000000000000000 ) ) ;
#51 = DIRECTION ( 'NONE',  ( -1.000000000000000000, -0.000000000000000000, -0.000000000000000000 ) ) ;
#52 = FACE_OUTER_BOUND ( 'NONE', #271, .T. ) ;
#53 = CYLINDRICAL_SURFACE ( 'NONE', #18, 10.00000000000000000 ) ;
#54 = CALENDAR_DATE ( 2020, 22, 12 ) ;
#55 = AXIS2_PLACEMENT_3D ( 'NONE', #111, #331, #63 ) ;
#56 = CARTESIAN_POINT ( 'NONE',  ( 2.500000000000000888, 0.000000000000000000, 10.00000000000000000 ) ) ;
#57 = DIRECTION ( 'NONE',  ( -1.000000000000000000, -0.000000000000000000, -0.000000000000000000 ) ) ;
#58 = ADVANCED_FACE ( 'NONE', ( #96 ), #192, .T. ) ;
#59 = FACE_OUTER_BOUND ( 'NONE', #93, .T. ) ;
#60 = VECTOR ( 'NONE', #311, 1000.000000000000000 ) ;
#61 = ORIENTED_EDGE ( 'NONE', *, *, #209, .T. ) ;
#62 = DIRECTION ( 'NONE',  ( -1.000000000000000000, -0.000000000000000000, -0.000000000000000000 ) ) ;
#63 = DIRECTION ( 'NONE',  ( 1.000000000000000000, 0.000000000000000000, 0.000000000000000000 ) ) ;
#64 = CARTESIAN_POINT ( 'NONE',  ( -2.500000000000000444, 1.224646799147353256E-15, -10.00000000000000000 ) ) ;
#65 = ORIENTED_EDGE ( 'NONE', *, *, #281, .T. ) ;
#66 = ORIENTED_EDGE ( 'NONE', *, *, #169, .F. ) ;
#67 = PERSON_AND_ORGANIZATION ( #85, #194 ) ;
#68 = ADVANCED_FACE ( 'NONE', ( #19 ), #177, .F. ) ;
#69 = APPROVAL_PERSON_ORGANIZATION ( #280, #175, #6 ) ;
#70 = CARTESIAN_POINT ( 'NONE',  ( -3.000000000000000000, 0.000000000000000000, 12.69999999999999929 ) ) ;
#71 = DESIGN_CONTEXT ( 'detailed design', #15, 'design' ) ;
#72 = FACE_OUTER_BOUND ( 'NONE', #212, .T. ) ;
#73 = DIRECTION ( 'NONE',  ( -1.000000000000000000, -0.000000000000000000, -0.000000000000000000 ) ) ;
#74 = APPROVAL_STATUS ( 'not_yet_approved' ) ;
#75 = EDGE_CURVE ( 'NONE', #40, #189, #196, .T. ) ;
#76 = LOCAL_TIME ( 17, 8, 13.00000000000000000, #285 ) ;
#77 = AXIS2_PLACEMENT_3D ( 'NONE', #164, #140, #239 ) ;
#78 = FACE_OUTER_BOUND ( 'NONE', #302, .T. ) ;
#79 = PERSON_AND_ORGANIZATION_ROLE ( 'classification_officer' ) ;
#80 = CARTESIAN_POINT ( 'NONE',  ( 3.000000000000000000, 0.000000000000000000, 0.000000000000000000 ) ) ;
#81 = CARTESIAN_POINT ( 'NONE',  ( -1.614212418857619014, 0.000000000000000000, 0.000000000000000000 ) ) ;
#82 =( NAMED_UNIT ( * ) SI_UNIT ( $, .STERADIAN. ) SOLID_ANGLE_UNIT ( ) );
#83 = ORIENTED_EDGE ( 'NONE', *, *, #254, .F. ) ;
#84 =( LENGTH_UNIT ( ) NAMED_UNIT ( * ) SI_UNIT ( .MILLI., .METRE. ) );
#85 = PERSON ( 'UNSPECIFIED', 'UNSPECIFIED', 'UNSPECIFIED', ('UNSPECIFIED'), ('UNSPECIFIED'), ('UNSPECIFIED') ) ;
#86 = ORIENTED_EDGE ( 'NONE', *, *, #38, .F. ) ;
#87 = CC_DESIGN_PERSON_AND_ORGANIZATION_ASSIGNMENT ( #205, #282, ( #269 ) ) ;
#88 = LINE ( 'NONE', #39, #264 ) ;
#89 = VECTOR ( 'NONE', #57, 1000.000000000000000 ) ;
#90 = CC_DESIGN_SECURITY_CLASSIFICATION ( #325, ( #269 ) ) ;
#91 = ORIENTED_EDGE ( 'NONE', *, *, #176, .T. ) ;
#92 = EDGE_CURVE ( 'NONE', #237, #40, #155, .T. ) ;
#93 = EDGE_LOOP ( 'NONE', ( #97, #161, #145, #116 ) ) ;
#94 = ORIENTED_EDGE ( 'NONE', *, *, #326, .F. ) ;
#95 = ADVANCED_FACE ( 'NONE', ( #52 ), #53, .F. ) ;
#96 = FACE_OUTER_BOUND ( 'NONE', #330, .T. ) ;
#97 = ORIENTED_EDGE ( 'NONE', *, *, #44, .F. ) ;
#98 = AXIS2_PLACEMENT_3D ( 'NONE', #12, #208, #159 ) ;
#99 = CARTESIAN_POINT ( 'NONE',  ( -1.614212418857619014, 0.000000000000000000, 0.000000000000000000 ) ) ;
#100 = FACE_BOUND ( 'NONE', #270, .T. ) ;
#101 = CARTESIAN_POINT ( 'NONE',  ( -1.614212418857619014, 1.555301434917138433E-15, -12.69999999999999929 ) ) ;
#102 = CIRCLE ( 'NONE', #22, 10.00000000000000000 ) ;
#103 = DIRECTION ( 'NONE',  ( 0.000000000000000000, 0.000000000000000000, 1.000000000000000000 ) ) ;
#104 = CYLINDRICAL_SURFACE ( 'NONE', #295, 10.00000000000000000 ) ;
#105 = COORDINATED_UNIVERSAL_TIME_OFFSET ( 8, 0, .AHEAD. ) ;
#106 = DIRECTION ( 'NONE',  ( -1.000000000000000000, -0.000000000000000000, -0.000000000000000000 ) ) ;
#107 = VERTEX_POINT ( 'NONE', #150 ) ;
#108 = CIRCLE ( 'NONE', #17, 12.69999999999999929 ) ;
#109 = DIRECTION ( 'NONE',  ( -1.000000000000000000, -0.000000000000000000, -0.000000000000000000 ) ) ;
#110 = CARTESIAN_POINT ( 'NONE',  ( -1.614212418857619014, 0.000000000000000000, 0.000000000000000000 ) ) ;
#111 = CARTESIAN_POINT ( 'NONE',  ( 0.000000000000000000, 0.000000000000000000, 0.000000000000000000 ) ) ;
#112 =( GEOMETRIC_REPRESENTATION_CONTEXT ( 3 ) GLOBAL_UNCERTAINTY_ASSIGNED_CONTEXT ( ( #8 ) ) GLOBAL_UNIT_ASSIGNED_CONTEXT ( ( #84, #184, #82 ) ) REPRESENTATION_CONTEXT ( 'NONE', 'WORKASPACE' ) );
#113 = APPROVAL_ROLE ( '' ) ;
#114 = EDGE_LOOP ( 'NONE', ( #61, #163 ) ) ;
#115 = CIRCLE ( 'NONE', #158, 10.00000000000000000 ) ;
#116 = ORIENTED_EDGE ( 'NONE', *, *, #146, .F. ) ;
#117 = CARTESIAN_POINT ( 'NONE',  ( 3.000000000000000000, 0.000000000000000000, 12.69999999999999929 ) ) ;
#118 = DIRECTION ( 'NONE',  ( 0.000000000000000000, 0.000000000000000000, 1.000000000000000000 ) ) ;
#119 = DIRECTION ( 'NONE',  ( 0.000000000000000000, 0.000000000000000000, 1.000000000000000000 ) ) ;
#120 = AXIS2_PLACEMENT_3D ( 'NONE', #47, #62, #268 ) ;
#121 = ADVANCED_FACE ( 'NONE', ( #78, #335 ), #228, .F. ) ;
#122 = DIRECTION ( 'NONE',  ( -1.000000000000000000, -0.000000000000000000, -0.000000000000000000 ) ) ;
#123 = APPROVAL_DATE_TIME ( #148, #175 ) ;
#124 = CARTESIAN_POINT ( 'NONE',  ( -1.614212418857619014, 0.000000000000000000, 10.00000000000000000 ) ) ;
#125 = CARTESIAN_POINT ( 'NONE',  ( -2.500000000000000444, 0.000000000000000000, 0.000000000000000000 ) ) ;
#126 = CIRCLE ( 'NONE', #323, 12.69999999999999929 ) ;
#127 = COORDINATED_UNIVERSAL_TIME_OFFSET ( 8, 0, .AHEAD. ) ;
#128 = AXIS2_PLACEMENT_3D ( 'NONE', #35, #278, #50 ) ;
#129 = DIRECTION ( 'NONE',  ( -1.000000000000000000, -0.000000000000000000, -0.000000000000000000 ) ) ;
#130 = PERSON_AND_ORGANIZATION ( #85, #194 ) ;
#131 = DIRECTION ( 'NONE',  ( -1.000000000000000000, -0.000000000000000000, -0.000000000000000000 ) ) ;
#132 = ORIENTED_EDGE ( 'NONE', *, *, #292, .F. ) ;
#133 = PLANE ( 'NONE',  #98 ) ;
#134 = DIRECTION ( 'NONE',  ( -1.000000000000000000, -0.000000000000000000, -0.000000000000000000 ) ) ;
#135 = ORIENTED_EDGE ( 'NONE', *, *, #176, .F. ) ;
#136 = CC_DESIGN_DATE_AND_TIME_ASSIGNMENT ( #197, #27, ( #325 ) ) ;
#137 = DIRECTION ( 'NONE',  ( 0.000000000000000000, 0.000000000000000000, 1.000000000000000000 ) ) ;
#138 = CC_DESIGN_PERSON_AND_ORGANIZATION_ASSIGNMENT ( #67, #213, ( #307 ) ) ;
#139 = CC_DESIGN_APPROVAL ( #26, ( #224 ) ) ;
#140 = DIRECTION ( 'NONE',  ( -1.000000000000000000, -0.000000000000000000, -0.000000000000000000 ) ) ;
#141 = CC_DESIGN_PERSON_AND_ORGANIZATION_ASSIGNMENT ( #130, #79, ( #325 ) ) ;
#142 = DIRECTION ( 'NONE',  ( 1.000000000000000000, 0.000000000000000000, 0.000000000000000000 ) ) ;
#143 = AXIS2_PLACEMENT_3D ( 'NONE', #110, #234, #207 ) ;
#144 = DIRECTION ( 'NONE',  ( 0.000000000000000000, 0.000000000000000000, -1.000000000000000000 ) ) ;
#145 = ORIENTED_EDGE ( 'NONE', *, *, #153, .T. ) ;
#146 = EDGE_CURVE ( 'NONE', #275, #297, #308, .T. ) ;
#147 = CARTESIAN_POINT ( 'NONE',  ( -3.000000000000000000, 10.00000000000000000, 0.000000000000000000 ) ) ;
#148 = DATE_AND_TIME ( #54, #265 ) ;
#149 = LINE ( 'NONE', #101, #60 ) ;
#150 = CARTESIAN_POINT ( 'NONE',  ( 2.999999999999999112, 1.224646799147353256E-15, -10.00000000000000000 ) ) ;
#151 = DATE_AND_TIME ( #29, #5 ) ;
#152 = DIRECTION ( 'NONE',  ( -1.000000000000000000, 0.000000000000000000, -0.000000000000000000 ) ) ;
#153 = EDGE_CURVE ( 'NONE', #320, #297, #304, .T. ) ;
#154 = PERSON_AND_ORGANIZATION ( #85, #194 ) ;
#155 = CIRCLE ( 'NONE', #250, 12.69999999999999929 ) ;
#156 = DIRECTION ( 'NONE',  ( 0.000000000000000000, 0.000000000000000000, 1.000000000000000000 ) ) ;
#157 = EDGE_CURVE ( 'NONE', #170, #37, #115, .T. ) ;
#158 = AXIS2_PLACEMENT_3D ( 'NONE', #125, #305, #32 ) ;
#159 = DIRECTION ( 'NONE',  ( 0.000000000000000000, 0.000000000000000000, -1.000000000000000000 ) ) ;
#160 = ADVANCED_FACE ( 'NONE', ( #100, #72 ), #251, .F. ) ;
#161 = ORIENTED_EDGE ( 'NONE', *, *, #254, .T. ) ;
#162 = CARTESIAN_POINT ( 'NONE',  ( 3.000000000000000000, 0.000000000000000000, 0.000000000000000000 ) ) ;
#163 = ORIENTED_EDGE ( 'NONE', *, *, #44, .T. ) ;
#164 = CARTESIAN_POINT ( 'NONE',  ( -1.614212418857619014, 0.000000000000000000, 0.000000000000000000 ) ) ;
#165 = APPROVAL_STATUS ( 'not_yet_approved' ) ;
#166 = APPROVAL_PERSON_ORGANIZATION ( #310, #42, #226 ) ;
#167 = DIRECTION ( 'NONE',  ( -1.000000000000000000, -0.000000000000000000, -0.000000000000000000 ) ) ;
#168 = CIRCLE ( 'NONE', #329, 10.00000000000000000 ) ;
#169 = EDGE_CURVE ( 'NONE', #298, #259, #102, .T. ) ;
#170 = VERTEX_POINT ( 'NONE', #223 ) ;
#171 = AXIS2_PLACEMENT_3D ( 'NONE', #9, #106, #13 ) ;
#172 = ORIENTED_EDGE ( 'NONE', *, *, #46, .F. ) ;
#173 = CARTESIAN_POINT ( 'NONE',  ( -3.000000000000000444, 0.000000000000000000, 0.000000000000000000 ) ) ;
#174 = DIRECTION ( 'NONE',  ( -1.000000000000000000, 0.000000000000000000, -0.000000000000000000 ) ) ;
#175 = APPROVAL ( #315, 'UNSPECIFIED' ) ;
#176 = EDGE_CURVE ( 'NONE', #237, #290, #149, .T. ) ;
#177 = CYLINDRICAL_SURFACE ( 'NONE', #306, 10.00000000000000000 ) ;
#178 = CARTESIAN_POINT ( 'NONE',  ( 2.999999999999999112, 12.69999999999999929, 0.000000000000000000 ) ) ;
#179 = LINE ( 'NONE', #262, #316 ) ;
#180 = DATE_TIME_ROLE ( 'creation_date' ) ;
#181 = LOCAL_TIME ( 17, 8, 13.00000000000000000, #127 ) ;
#182 = ORIENTED_EDGE ( 'NONE', *, *, #38, .T. ) ;
#183 = ADVANCED_BREP_SHAPE_REPRESENTATION ( 'Q-AZHWP-20-355-M', ( #238, #55 ), #112 ) ;
#184 =( NAMED_UNIT ( * ) PLANE_ANGLE_UNIT ( ) SI_UNIT ( $, .RADIAN. ) );
#185 = LINE ( 'NONE', #258, #89 ) ;
#186 = AXIS2_PLACEMENT_3D ( 'NONE', #162, #319, #137 ) ;
#187 = CC_DESIGN_APPROVAL ( #42, ( #269 ) ) ;
#188 = ORIENTED_EDGE ( 'NONE', *, *, #153, .F. ) ;
#189 = VERTEX_POINT ( 'NONE', #70 ) ;
#190 = ORIENTED_EDGE ( 'NONE', *, *, #146, .T. ) ;
#191 = ORIENTED_EDGE ( 'NONE', *, *, #157, .T. ) ;
#192 = CYLINDRICAL_SURFACE ( 'NONE', #77, 12.69999999999999929 ) ;
#193 = CC_DESIGN_PERSON_AND_ORGANIZATION_ASSIGNMENT ( #200, #252, ( #269 ) ) ;
#194 = ORGANIZATION ( 'UNSPECIFIED', 'UNSPECIFIED', '' ) ;
#195 = DIRECTION ( 'NONE',  ( 0.000000000000000000, 0.000000000000000000, -1.000000000000000000 ) ) ;
#196 = LINE ( 'NONE', #202, #276 ) ;
#197 = DATE_AND_TIME ( #229, #76 ) ;
#198 = ADVANCED_FACE ( 'NONE', ( #249 ), #286, .F. ) ;
#199 = DIRECTION ( 'NONE',  ( 0.000000000000000000, 0.000000000000000000, 1.000000000000000000 ) ) ;
#200 = PERSON_AND_ORGANIZATION ( #85, #194 ) ;
#201 = CC_DESIGN_APPROVAL ( #175, ( #325 ) ) ;
#202 = CARTESIAN_POINT ( 'NONE',  ( -1.614212418857619014, 0.000000000000000000, 12.69999999999999929 ) ) ;
#203 = CALENDAR_DATE ( 2020, 22, 12 ) ;
#204 = CYLINDRICAL_SURFACE ( 'NONE', #143, 10.00000000000000000 ) ;
#205 = PERSON_AND_ORGANIZATION ( #85, #194 ) ;
#206 = ORIENTED_EDGE ( 'NONE', *, *, #247, .T. ) ;
#207 = DIRECTION ( 'NONE',  ( 0.000000000000000000, 0.000000000000000000, 1.000000000000000000 ) ) ;
#208 = DIRECTION ( 'NONE',  ( 1.000000000000000000, 0.000000000000000000, 0.000000000000000000 ) ) ;
#209 = EDGE_CURVE ( 'NONE', #275, #107, #277, .T. ) ;
#210 = CARTESIAN_POINT ( 'NONE',  ( 2.999999999999999112, 0.000000000000000000, 10.00000000000000000 ) ) ;
#211 = COORDINATED_UNIVERSAL_TIME_OFFSET ( 8, 0, .AHEAD. ) ;
#212 = EDGE_LOOP ( 'NONE', ( #219, #261 ) ) ;
#213 = PERSON_AND_ORGANIZATION_ROLE ( 'design_owner' ) ;
#214 = PRODUCT_RELATED_PRODUCT_CATEGORY ( 'detail', '', ( #307 ) ) ;
#215 = MECHANICAL_CONTEXT ( 'NONE', #332, 'mechanical' ) ;
#216 = EDGE_LOOP ( 'NONE', ( #191, #206, #267, #132 ) ) ;
#217 = CLOSED_SHELL ( 'NONE', ( #58, #257, #222, #198, #68, #95, #160, #33, #121, #272 ) ) ;
#218 = CARTESIAN_POINT ( 'NONE',  ( -3.000000000000000444, 0.000000000000000000, 0.000000000000000000 ) ) ;
#219 = ORIENTED_EDGE ( 'NONE', *, *, #321, .T. ) ;
#220 = LOCAL_TIME ( 17, 8, 13.00000000000000000, #211 ) ;
#221 = DIRECTION ( 'NONE',  ( 0.000000000000000000, 0.000000000000000000, 1.000000000000000000 ) ) ;
#222 = ADVANCED_FACE ( 'NONE', ( #59 ), #104, .F. ) ;
#223 = CARTESIAN_POINT ( 'NONE',  ( -2.500000000000000444, 0.000000000000000000, 10.00000000000000000 ) ) ;
#224 = PRODUCT_DEFINITION ( 'UNKNOWN', '', #269, #71 ) ;
#225 = DIRECTION ( 'NONE',  ( -1.000000000000000000, -0.000000000000000000, -0.000000000000000000 ) ) ;
#226 = APPROVAL_ROLE ( '' ) ;
#227 = APPROVAL_DATE_TIME ( #241, #26 ) ;
#228 = PLANE ( 'NONE',  #324 ) ;
#229 = CALENDAR_DATE ( 2020, 22, 12 ) ;
#230 = CC_DESIGN_PERSON_AND_ORGANIZATION_ASSIGNMENT ( #154, #34, ( #224 ) ) ;
#231 = DIRECTION ( 'NONE',  ( 0.000000000000000000, 0.000000000000000000, 1.000000000000000000 ) ) ;
#232 = DIRECTION ( 'NONE',  ( -1.000000000000000000, -0.000000000000000000, -0.000000000000000000 ) ) ;
#233 = AXIS2_PLACEMENT_3D ( 'NONE', #48, #142, #144 ) ;
#234 = DIRECTION ( 'NONE',  ( -1.000000000000000000, -0.000000000000000000, -0.000000000000000000 ) ) ;
#235 = CARTESIAN_POINT ( 'NONE',  ( 2.500000000000000888, 1.224646799147353256E-15, -10.00000000000000000 ) ) ;
#236 = ORIENTED_EDGE ( 'NONE', *, *, #247, .F. ) ;
#237 = VERTEX_POINT ( 'NONE', #296 ) ;
#238 = MANIFOLD_SOLID_BREP ( 'Ðý×', #217 ) ;
#239 = DIRECTION ( 'NONE',  ( 0.000000000000000000, 0.000000000000000000, 1.000000000000000000 ) ) ;
#240 = PRODUCT_DEFINITION_SHAPE ( 'NONE', 'NONE',  #224 ) ;
#241 = DATE_AND_TIME ( #327, #220 ) ;
#242 = ORIENTED_EDGE ( 'NONE', *, *, #92, .F. ) ;
#243 = ORIENTED_EDGE ( 'NONE', *, *, #92, .T. ) ;
#244 = AXIS2_PLACEMENT_3D ( 'NONE', #284, #152, #313 ) ;
#245 = APPLICATION_PROTOCOL_DEFINITION ( 'international standard', 'config_control_design', 1994, #332 ) ;
#246 = CARTESIAN_POINT ( 'NONE',  ( 2.999999999999999112, 0.000000000000000000, 0.000000000000000000 ) ) ;
#247 = EDGE_CURVE ( 'NONE', #37, #259, #179, .T. ) ;
#248 = AXIS2_PLACEMENT_3D ( 'NONE', #147, #1, #195 ) ;
#249 = FACE_OUTER_BOUND ( 'NONE', #14, .T. ) ;
#250 = AXIS2_PLACEMENT_3D ( 'NONE', #80, #225, #119 ) ;
#251 = PLANE ( 'NONE',  #248 ) ;
#252 = PERSON_AND_ORGANIZATION_ROLE ( 'creator' ) ;
#253 = DIRECTION ( 'NONE',  ( -1.000000000000000000, -0.000000000000000000, -0.000000000000000000 ) ) ;
#254 = EDGE_CURVE ( 'NONE', #107, #320, #88, .T. ) ;
#255 = CARTESIAN_POINT ( 'NONE',  ( 2.500000000000000888, 0.000000000000000000, 0.000000000000000000 ) ) ;
#256 = DATE_AND_TIME ( #203, #181 ) ;
#257 = ADVANCED_FACE ( 'NONE', ( #289 ), #204, .F. ) ;
#258 = CARTESIAN_POINT ( 'NONE',  ( -1.614212418857619014, 0.000000000000000000, 10.00000000000000000 ) ) ;
#259 = VERTEX_POINT ( 'NONE', #7 ) ;
#260 = DIRECTION ( 'NONE',  ( 0.000000000000000000, 0.000000000000000000, 1.000000000000000000 ) ) ;
#261 = ORIENTED_EDGE ( 'NONE', *, *, #317, .T. ) ;
#262 = CARTESIAN_POINT ( 'NONE',  ( -1.614212418857619014, 1.224646799147353256E-15, -10.00000000000000000 ) ) ;
#263 = ORIENTED_EDGE ( 'NONE', *, *, #75, .T. ) ;
#264 = VECTOR ( 'NONE', #134, 1000.000000000000000 ) ;
#265 = LOCAL_TIME ( 17, 8, 13.00000000000000000, #105 ) ;
#266 = DIRECTION ( 'NONE',  ( -1.000000000000000000, -0.000000000000000000, -0.000000000000000000 ) ) ;
#267 = ORIENTED_EDGE ( 'NONE', *, *, #46, .T. ) ;
#268 = DIRECTION ( 'NONE',  ( 0.000000000000000000, 0.000000000000000000, 1.000000000000000000 ) ) ;
#269 = PRODUCT_DEFINITION_FORMATION_WITH_SPECIFIED_SOURCE ( 'ANY', '', #307, .NOT_KNOWN. ) ;
#270 = EDGE_LOOP ( 'NONE', ( #66, #172 ) ) ;
#271 = EDGE_LOOP ( 'NONE', ( #236, #182, #16, #318 ) ) ;
#272 = ADVANCED_FACE ( 'NONE', ( #314 ), #133, .F. ) ;
#273 = ORIENTED_EDGE ( 'NONE', *, *, #281, .F. ) ;
#274 = AXIS2_PLACEMENT_3D ( 'NONE', #255, #129, #199 ) ;
#275 = VERTEX_POINT ( 'NONE', #210 ) ;
#276 = VECTOR ( 'NONE', #253, 1000.000000000000000 ) ;
#277 = CIRCLE ( 'NONE', #128, 10.00000000000000000 ) ;
#278 = DIRECTION ( 'NONE',  ( -1.000000000000000000, -0.000000000000000000, -0.000000000000000000 ) ) ;
#279 = DIRECTION ( 'NONE',  ( -0.000000000000000000, 0.000000000000000000, 1.000000000000000000 ) ) ;
#280 = PERSON_AND_ORGANIZATION ( #85, #194 ) ;
#281 = EDGE_CURVE ( 'NONE', #40, #237, #2, .T. ) ;
#282 = PERSON_AND_ORGANIZATION_ROLE ( 'design_supplier' ) ;
#283 = CIRCLE ( 'NONE', #4, 10.00000000000000000 ) ;
#284 = CARTESIAN_POINT ( 'NONE',  ( 2.500000000000000444, 10.00000000000000000, 0.000000000000000000 ) ) ;
#285 = COORDINATED_UNIVERSAL_TIME_OFFSET ( 8, 0, .AHEAD. ) ;
#286 = PLANE ( 'NONE',  #244 ) ;
#287 = CARTESIAN_POINT ( 'NONE',  ( -3.000000000000000000, 1.555301434917138433E-15, -12.69999999999999929 ) ) ;
#288 = APPROVAL_DATE_TIME ( #151, #42 ) ;
#289 = FACE_OUTER_BOUND ( 'NONE', #216, .T. ) ;
#290 = VERTEX_POINT ( 'NONE', #287 ) ;
#291 = ORIENTED_EDGE ( 'NONE', *, *, #321, .F. ) ;
#292 = EDGE_CURVE ( 'NONE', #170, #298, #185, .T. ) ;
#293 = CARTESIAN_POINT ( 'NONE',  ( -3.000000000000000000, 0.000000000000000000, 0.000000000000000000 ) ) ;
#294 = ORIENTED_EDGE ( 'NONE', *, *, #209, .F. ) ;
#295 = AXIS2_PLACEMENT_3D ( 'NONE', #81, #266, #260 ) ;
#296 = CARTESIAN_POINT ( 'NONE',  ( 3.000000000000000000, 1.555301434917138433E-15, -12.69999999999999929 ) ) ;
#297 = VERTEX_POINT ( 'NONE', #56 ) ;
#298 = VERTEX_POINT ( 'NONE', #322 ) ;
#299 = APPLICATION_PROTOCOL_DEFINITION ( 'international standard', 'config_control_design', 1994, #15 ) ;
#300 = FACE_OUTER_BOUND ( 'NONE', #20, .T. ) ;
#301 = CIRCLE ( 'NONE', #171, 10.00000000000000000 ) ;
#302 = EDGE_LOOP ( 'NONE', ( #273, #242 ) ) ;
#303 = CC_DESIGN_DATE_AND_TIME_ASSIGNMENT ( #256, #180, ( #224 ) ) ;
#304 = CIRCLE ( 'NONE', #274, 10.00000000000000000 ) ;
#305 = DIRECTION ( 'NONE',  ( 1.000000000000000000, 0.000000000000000000, 0.000000000000000000 ) ) ;
#306 = AXIS2_PLACEMENT_3D ( 'NONE', #99, #73, #103 ) ;
#307 = PRODUCT ( 'Q-AZHWP-20-355-M', 'Q-AZHWP-20-355-M', '', ( #215 ) ) ;
#308 = LINE ( 'NONE', #124, #41 ) ;
#309 = COORDINATED_UNIVERSAL_TIME_OFFSET ( 8, 0, .AHEAD. ) ;
#310 = PERSON_AND_ORGANIZATION ( #85, #194 ) ;
#311 = DIRECTION ( 'NONE',  ( -1.000000000000000000, -0.000000000000000000, -0.000000000000000000 ) ) ;
#312 = SECURITY_CLASSIFICATION_LEVEL ( 'unclassified' ) ;
#313 = DIRECTION ( 'NONE',  ( -0.000000000000000000, 0.000000000000000000, 1.000000000000000000 ) ) ;
#314 = FACE_OUTER_BOUND ( 'NONE', #45, .T. ) ;
#315 = APPROVAL_STATUS ( 'not_yet_approved' ) ;
#316 = VECTOR ( 'NONE', #109, 1000.000000000000000 ) ;
#317 = EDGE_CURVE ( 'NONE', #290, #189, #126, .T. ) ;
#318 = ORIENTED_EDGE ( 'NONE', *, *, #169, .T. ) ;
#319 = DIRECTION ( 'NONE',  ( -1.000000000000000000, -0.000000000000000000, -0.000000000000000000 ) ) ;
#320 = VERTEX_POINT ( 'NONE', #235 ) ;
#321 = EDGE_CURVE ( 'NONE', #189, #290, #108, .T. ) ;
#322 = CARTESIAN_POINT ( 'NONE',  ( -3.000000000000000444, 0.000000000000000000, 10.00000000000000000 ) ) ;
#323 = AXIS2_PLACEMENT_3D ( 'NONE', #293, #232, #156 ) ;
#324 = AXIS2_PLACEMENT_3D ( 'NONE', #178, #174, #279 ) ;
#325 = SECURITY_CLASSIFICATION ( '', '', #312 ) ;
#326 = EDGE_CURVE ( 'NONE', #297, #320, #301, .T. ) ;
#327 = CALENDAR_DATE ( 2020, 22, 12 ) ;
#328 = ORIENTED_EDGE ( 'NONE', *, *, #75, .F. ) ;
#329 = AXIS2_PLACEMENT_3D ( 'NONE', #218, #333, #118 ) ;
#330 = EDGE_LOOP ( 'NONE', ( #65, #91, #291, #328 ) ) ;
#331 = DIRECTION ( 'NONE',  ( 0.000000000000000000, 0.000000000000000000, 1.000000000000000000 ) ) ;
#332 = APPLICATION_CONTEXT ( 'configuration controlled 3d designs of mechanical parts and assemblies' ) ;
#333 = DIRECTION ( 'NONE',  ( -1.000000000000000000, -0.000000000000000000, -0.000000000000000000 ) ) ;
#334 = APPROVAL_PERSON_ORGANIZATION ( #23, #26, #113 ) ;
#335 = FACE_BOUND ( 'NONE', #114, .T. ) ;
ENDSEC;
END-ISO-10303-21;
